Welcome to My Blog

Enjoy It . . .

Cara Pembuatan OHLG

Diposkan oleh Anjar Saputro's Kamis, 02 Juni 2011 0 comment(s)

Pembuatan Pesawat OHLG

1. Pembuatan Wing
• Bahan kayu balsa medium ukuran panjang 37.40 cm lebar 8 cm tebal bahan 0.60 cm. bahan tersebut setelah dihaluskan dengan ampelas, tentukan bagian atas dan bawah. Pada bagian atas buat garis lurus (High Point Line), garis ini merupakan garis puncak/garis paling tinggi dalam membentuk airfoil.
• Gambar ini merupakan penampang wing yang berbentuk airfoil cembung datar. Pada bagian depan (leading edge) dan bagian belakang (thrilling edge) yang diberi tanda arsir dihilangkan dengan cara:
o Taruh bahan wing diatas meja yang rata kemudian dengan menggunakan cutter kita serut searah dengan arah serat kayu. Setelah membentuk airfoil, baru kita menggunakan ampelas dengan alas yang rata untuk mengampelas atas sampai halus.
• Apabila menggunakan cutter sesuai garis lalu betulkan bentuk airfoil dari bekas yang dipotong dengan ampelas. Makin ke ujung di buat makin tipis dengan bagian kanan dan kiri sama.
• Bahan wing kita letakkan diatas tripleks atau papan yang rata lalu potong bagian tip, baik wing kanan maupun wing kiri. Kita juga menggunakan jarum pentul untuk bagian tengah dengan sudut alpha yang dinamakan sudut hydral pada kedua ujung sampai membentuk wing tip hydral. Untuk membantu pembuatan, kita menggunakan jarum pentul dan agar sudut hydral sama, maka dibutuhkan penyangga dengan ketinggian 2.50 cm. pada sambungan kita beri lem dengan menggunakan lem alteco dicampur dengancelulose dab jangan lupa di bawah potongan yang diner lem tadi diberi alas kertas agar lem tidak menempel pada tripleks. Biarkan sampai lem kering, lalu kita bisa mengerjakan bahan yang lain yaitu stabillo.
2. Pembuatan stabillo
• Bahan yang digunakan adalah kayu balsa medium dengan tebal 1 ½ - 2 mm, lebar dan panjang stabillo disesuaikan konstruksi pesawat yang sedang dibuat
• Luas stabillo yang ideal ± 25 % luas wing
• Langkah pembuatannya sbb.:
i. Pada bagian depan (LE) dibuat bentuk bulat menggunakan ampelas sampai rata, makin ke belakang dibuat makin tipis seperti pisau tajam
ii. Dari bahan yang sudah dibentuk dengan garis potong sesuai dengan garis yang ada, hilangkan bagian yang diarsir menggunakan cutter yang betul-betul tajam. Hati-hati dalam memotong agar tidak terdapat bagian yang rusak. Arah potongan dari LE ke ujung kanan dan kiri, lalu haluskan bentuk potongan tadi
iii. Stabillo dilihat dari samping dimana bagian depan (LE) berbentuk bulat sedangakan bagian TE juga ditipiskan sampai tajam
iv. Disini sudah terlihat bentuk stabillo yang sudah dibentuk sesuai konstruksi dan sudah dihaluskan. Jangan lupa beri garis Bantu untuk dua yangsama untuk memudahkan pda waktu assembling stabillo dan body. Yang perlu diingat adalah pada pemasangannya jangan sampai terbalik, yaitu pada bagian atas yang cembung.
3. Pembuatan Fin
• Bahan yang digunakan adalah kayu balsa medium dengan tebal 1 ½ - 2 mm
• Cara pembuatan
i. Buat bentuk fin sesuai dengan gambar kosntruksinya. Hilangkan bagian-bagian yang diarsir, gunakan cutter, potong dari arah LE ke TE. Hati-hati jangan sampai rusak dalam memotong karena bahannya tipis apalagi bagian ujung TE mudah sekali pecah
ii. Pada bagian depan (LE), juga dibuat bulat dengan menggunakan ampelas halus yang menggunakan alas ampelas yang rata. Makin ke belakang dibuat semakin tipis dengan mengurangi bagian samping kanan dan kiri yang sama dan rata. Pda ujungnya tetap berbentuk tajam agar mudah dimankan/dibengkokkan ke kanan dank e kiri pada waktu penerbangan
iii. Pada bagian depan dibuat halus menggunakan ampelas halus. Tidak usah menggunakan landasan, tetapi gunakan landasan tang langsung agar dapat merasakan kehalusan bagian fin ini. Potongan bagian bawah biarkan agak kasar karena dapat membantu assembling dengan body. Lem akan merekan lebih kuat.
4. Pembuatan body
• Bahan pembuatan body biasanya kayu spruce yang mempunyai sifat lentur dan kuat, tetapi lebih berat dibandingkan bahan body balsa keras (hard)
• Ada lagi yang menggunakan bahan body dari bamboo, tetapi bahan bamboo ini mempunyai kelenturan yang sangat tinggi sehingga pada waktu penerbangan mudah sekali berubah posisi bagian-bagiannya sehingga mengakibatkan pesawat terbang tidak stabil
• Yang paling ideal adalah kayu balsa keras atau ditingkatkan dengan bahan fiberglass

Kepanduan SMPN 2 Klaten

Diposkan oleh Anjar Saputro's Sabtu, 13 Maret 2010 0 comment(s)

Dalam artikel saya kali ini saya akan mengulas tentang Ekstra Pramuka di SMPN 2 Klaten.
Sejarah Singkat Pramuka
Gerakan Pramuka (PRaja MUda KArana) adalah sebuah gerakan pembinaan pemuda yang memiliki pengaruh mendunia. Gerakan ini dibentuk tahun 1907 oleh Robert Baden-Powell dan William Alexander. Pada awalnya gerakan ini dibentuk untuk kemiliteran namun lambat laun berubah menjadi organisasi kepanduan. Gerakan ini kemudian berkembang ke berbagai penjuru negara dan akhirnya sampai ke Indonesia.
SMPN 2 Klaten (ESPERO)
Adalah sekolah menengah pertama di Kabupaten Klaten. Tergolong sekolah yang cukup kecil ditinjau dari luas bangunannya. Akan tetapi sudah mulai dirintis sebagai SBI (Sekolah Bertaraf Internasional). Setiap kelas terdapat enam lokal yaitu lokal A sampai F. Lokal A sampai C adalah kelas regular dan D sampai F adalah kelas RSBI. Walaupun begitu hal tersebut tidak membuat pergaulan antar kelas terbatasi. Untuk lokasi bangunannya sendiri terbagi atas 2 lokasi yaitu lokasi pusat (Jl. Pemuda Selatan No.4 Klaten Tengah, Klaten) dan pondok (Kp. Pondok Klaten Tengah, Klaten).
Ekstra Pramuka di SMPN 2 Klaten
Di SMPN 2 Klaten sendiri pramuka merupakan ekstra wajib. Diikuti oleh kelas VII sebagai peserta kepramukaan tingkat penggalang dan kelas VIII dan IX sebagai DP dan juga didampingi oleh beberapa orang Pembina.
Ada berbagai kegiatan rutin baik minggunan bulanan sampai tahunan antara lain:
a. KBM Kepramukaan regular
Kegiatan ini dilakukan setiap hari Jum’at dari pukul 14.30-16.30. terbagi atas dua sesi. Sesi pertama diisi dengan pemberian materi pokok dan hal penting lainnya. Sesi kedua diisi dengan sharing atau binaan mental.
Pada awalnya peserta tidak lantas to the point ke materi pokok. Akan tetapi akan dibina dalam orientasi kepramukaan di ESPERO. Sebagai contoh pembentukan regu, struktur organisasi, dll.
b. Madak (Mawar Badak)
Sebenarnya bukan merupakan kegiatan pramuka rutin melainkan hanya sebagai tambahan materi saja. Akan tetapi lambat laun kegiatan ini mulai ditinggalkan tan alas an yang jelas.
c. Ujian
Dilaksanakan secara mendadak tanpa “isyarat” apapun dan secara tertulis. Hal ini dimaksudkan untuk menguji tentang pengetahuan peserta.
d. Widegame
Program tahunan yang dimaksud menguji peserta layaknya ujian yang telah tersebut di atas dalam bentuk praktek dengan mencari jejak sesuai rute yang telah ditentukan. Kali ini tiap regu akan dinilai berdasarkan aspek-aspek tertentu dan akan ditentukan juara dengan menjumlah nilai yang dikumpulkan dalam widegame tersebut.
e. Ujian Tingkatan Kepenggalangan
Dilakukan sebagai kualifikasi tingkatan dalam penggalang peserta. Peserta akan diuji oleh DP dan diperhatikan kelayakannya dan akan direkomendasikan kepada Pembina. Berikut tingkatan dalam pramuka penggalang:
• Penggalang Ramu
• Penggalang Rakit
• Penggalang Terap
• Penggalang Garuda
f. pra-LT 1
Dilaksanakan untuk menghadapi “ujian akhir” kepramukaan dalam gugus depan ESPERO. Kegiatannya berupa pembinaan, Tanya jawab, dll.
g. LT1
LT1 atau lomba tingkat 1 (gugus depan) merupakan program puncak pad ekstra kepramukaan pramuka. Para peserta akan berkemah di tempat yang sudah disepakati selama 3 hari 2 malam. Selama itu peserta akan diuji sesuai materi yang telah diberikan sebelumnya.
h. Dian Pinru (glaDIAN PimPINan RegU)
Hanya diikuti beberapa peserta yang berminat sebagai DP dan juga digunakan sebagai acara restrukturisasi pengurus pramuka.
Prestasi Kepramukaan ESPERO
Banyak prestasi yang telah dicapai oleh Kepramukaan ESPERO antara lain:
• Juara II Jambore Cabang Klaten Putra tahun 2007
• Juara II Jambore Cabang Klaten Putri tahun 2007
• Fandel Kenangan Jambore Dunia 2007
• Dll.
Penutup
Walaupun sudah bias terbilang baik namun kepramukaan di ESPERO cenderung menurun dari tahun-ketahun karena kedisiplinan yang mulai menurun. Untuk itu saya menghimbau kepada seluruh pengurus ekstra Pramuka agar lebih disiplin baik disiplin waktu maupu disiplin lainnya karena masa depan kepramukaan ESPERO ada di pundak kalian.

Sekian artikel dari saya semoga bermanfaat dan terima kasih atas kunjungannya.


Sumber:
http://id.wikipedia.org/
http://www.smpn2klaten.sch.id/

Berita Hebohh!!! Cheat Stronghold Crusader Extreme Update

Diposkan oleh Anjar Saputro's Sabtu, 13 Februari 2010 3 comment(s)

Ini dia yang saya cari dari dulu. Ya benar cheat stronghold crusader extreme yang bener-bener cheat. Juga bersamaan artikel ini saya mencabut kata- kata saya di artikel sebelumnya bahwa stronghold crusader extreme tidak ada cheatnya. Ok, kita mulai saja.

caranya begini
1. buka stronghold crusader extreme nya
2. tunggu loadingnya
3. saat di main menu tahan tombol Ctrl sambil mengetikkan "triblade2002" (gak pake tanda kutip).
4. mulai bermainlah bebas
5. ini dia cheatnya tekan tombol alt + x maka dengan sangat ajaib emas anda akan bertambah 1000 setiap anda menekan kombinasi tersebut.
Mungkin itu dulu ya saya akan mencari lebih banyak cheat lagi. OK

5 Guitar legend

Diposkan oleh Anjar Saputro's Kamis, 11 Februari 2010 0 comment(s)





Ini dia para gitaris legendaris terhebat yang pernah ada
5. Slash

Saul Hudson (lahir 23 Juli 1965),lebih sering diketahui sebagai Slash sebagai nama panggungnya, adalah seorang gitaris berkebangsaan Amerika-Inggris. Slash adalah mantan lead guitarist Guns N' Roses dan sekarang sebagai lead guitarist Velvet Revolver.







4. Joe Satriani

Joe "Satch" Satriani (lahir di Westbury, New York, Amerika Serikat, 15 Juli 1956; umur 53 tahun) adalah seorang gitaris dan guru gitar. Ia memulai karirnya sejak umur 12 tahun. Beberapa muridnya yang telah menjadi terkenal adalah Steve Vai dan Kirk Hammett. Ia terkenal ketika menaruh lagunya di Internet, dan banyak orang suka lagu yang dia mainkan.








3. Steve Vai

Steve Vai (lahir: Carle Place, New York, 6 Juni 1960) adalah gitaris, penulis lagu, penyanyi dan produser yang berasal dari Amerika Serikat.

















2. Jimi Hendrix

James Marshall "Jimi" Hendrix (lahir di Seattle, Washington, Amerika Serikat, 27 November 1942 – meninggal di London, Inggris, 18 September 1970 pada umur 27 tahun) adalah musisi, penyanyi, penulis lagu, gitaris dan tokoh budaya Amerika. Ia sering disebut sebagai salah satu pemain gitar listrik paling berpengaruh dalam sejarah musik rock




.

1. Yngwie Malmsteen

Yngwie Johann Malmsteen (pengucapan /ˈɪŋveɪ ˈmɑːlmstiːn/ dalam Bahasa Inggris) (lahir dengan nama Lars Johan Yngve Lannerbäck lahir di Stockholm, Swedia, 30 Juni 1963; umur 46 tahun) adalah seorang gitaris Swedia, penggubah lagu, ahli berbagai macam instrumen dan pemimpin grupband. Malmsteen menjadi terkenal di era 1980-an karena keahlian teknkal dalam komposisi neo-classical metal, sering dikaitkan dengan kecepatan bermain gitar dengan nanda tinggi, skala pekikan dan skala raungan. 4 albumnya, sejak 1984 sampai dengan 1988, Rising Force, Marching Out, Trilogy, dan Odyssey, berada di top 100 untuk penjualan.

Source:http://id.wikipedia.org/

Chord Sweet victory

Diposkan oleh Anjar Saputro's 0 comment(s)

e |--------------------------------------|
B |--------------------------------------|
G |------------------------------------1-|
D |--0--3-2--0-0---3-2----0--3-2--0-0----|
A |---------------------3----------------|
E |--------------------------------------|

Dm B
The winner takes all
C Dm
It's the thrill of one more kill
Dm
The last one to fall
C Dm
Will never sacrifice their will


Pre-Chorus:
F B
Don't ever look back
F
On the wind closing in
B
The only attack
Dm
were their wings on the wind
B C
oh the daydream begins

Chorus:
F Am Dm
And it's sweet, sweet, sweet victory! yeah
B
And it's ours for the taking
C
It's ours for the fight
F Am Dm
Oh it's sweet, sweet, sweet victory! yeah
Bm C
And the world is ours to follow

tabs sweet child O'mine

Diposkan oleh Anjar Saputro's 0 comment(s)

intro
--------------15----14-------------------15----14-----
-----15-------------------------15--------------------
--------14-12----14----14----------14-12----14----14--
--12-------------------------12-----------------------
------------------------------------------------------
------------------------------------------------------

--------------15----14-------------------15----14-----
-----15-------------------------15--------------------
--------14-12----------14----------14-12----------14--
--14-------------------------14-----------------------
------------------------------------------------------
------------------------------------------------------

--------------15----14-------------------15----14-----
-----15-------------------------15--------------------
--12----14-12----14----14----12----14-12----14----14--
------------------------------------------------------
------------------------------------------------------
------------------------------------------------------

--------------15----14-------------------15----14-----
-----15-------------------------15--------------------
--------14-12----14----14----------14-12----14----14--repeat 3 times
--12-------------------------12-----------------------
------------------------------------------------------
------------------------------------------------------


Chorus
A C
-----------------------------------------12----10-----
--14-14-------15----14-------13-13--------------------
--------14-------14----14----------12-10----12----12--
-----------14-----------------------------------------
------------------------------------------------------
------------------------------------------------------
D D
--------------15----14-------------------15---14-----
-----15-------------------------15-------------------
--------14-12----14----14----------14-12---14----14--
--12-------------------------12----------------------
-----------------------------------------------------
-----------------------------------------------------
A C
-----------------------------------------12----10-----
--14-14-------15----14-------13-13--------------------
--------14-------14----14----------12-10----12----12--
-----------14-----------------------------------------
------------------------------------------------------
------------------------------------------------------
D
--------------------
--------15----------
--12s14-------------
--------------------
--------------------
--------------------



1ST FILL
-------------------------------------------------------------
---10---8--7-----10--8--7----10---8------10---8-----10--8---
-------------------------------------9------------9----------
-------------------------------------------------------------
-------------------------------------------------------------
-------------------------------------------------------------

------------------10--10fb-(10)---------------
-10fb-(10)8--10fb-----------------------------
--------------------------------9fb-----------
----------------------------------------------
----------------------------------------------
----------------------------------------------

Chorus
A C
-----------------------------------------12----10-----
--14-14-------15----14-------13-13--------------------
--------14-------14----14----------12-10----12----12--
-----------14-----------------------------------------
------------------------------------------------------
------------------------------------------------------
D D
--------------15----14-------------------15---14-----
-----15-------------------------15-------------------
--------14-12----14----14----------14-12---14----14--
--12-------------------------12----------------------
-----------------------------------------------------
-----------------------------------------------------
A C
-----------------------------------------12----10-----
--14-14-------15----14-------13-13--------------------
--------14-------14----14----------12-10----12----12--
-----------14-----------------------------------------
------------------------------------------------------
------------------------------------------------------
D
--------------------
--------15----------
--12s14-------------
--------------------
--------------------
--------------------

2ND FILL
-------------------------------------------------------------
---10---8--7-----10--8--7----10---8------10---8-----10--8---
-------------------------------------9------------9----------
-------------------------------------------------------------
-------------------------------------------------------------
-------------------------------------------------------------

--------------------------------10--------------------
-10--8-7hb--(7)----7hb------------(7)-----10----8--7-
------------------7-----------------------------------
------------------------------------------------------
------------------------------------------------------
------------------------------------------------------

------------------------10----10--8-------/12--------
-10---8----7-----/10fb--------------------------------
------------------------------------------------------
------------------------------------------------------
------------------------------------------------------
------------------------------------------------------

--12---12--10---10-(10)-8---7hb--(7)----------------
-----------------------------------------8------------
---------------------------------------------7-~~~~~~~
------------------------------------------------------
------------------------------------------------------
------------------------------------------------------

-----------------------10---10fb--(10)-------------17----(17)-
-10fb--(10)p8---10fb-------------------17fb---(17)-------(17)-
--------------------------------------------------------------
--------------------------------------------------------------
--------------------------------------------------------------
--------------------------------------------------------------

SOLO
-17fb---------15--14--h15p14-----------15--14--h15p14-----------12--14-
-----------------------------17-----------------------17-16------------
-----------------------------------------------------------------------
-----------------------------------------------------------------------
-----------------------------------------------------------------------
-----------------------------------------------------------------------

-----------------------------------------------------------------------
--15fb-12----------------------------------------13-12-------h13p1210-
----------14fb-12--11h12----------------11-12-14-----------------------
-----------------------------14-----14---------------------------------
-----------------------------------------------------------------------
-----------------------------------------------------------------------

---------------------------------------------15fb----------------------
--13fb----13-----12--12-(12)-------12hb--10-----------7hb--------------
------------------------------------------------------------9--9-------
-----------------------------------------------------------------------
-----------------------------------------------------------------------
-----------------------------------------------------------------------

-----------------------------------------------------------------------
-----7hb---------------------------------------------------------------
----------9--9--9�-9--8--8/11---------11hb--9-----------------9--------
-----------------------------------------------11--10--11--------------
-----------------------------------------------------------------------
-----------------------------------------------------------------------

-----------------------------------------------------------------------
---------7h8p7--------------------------------------------7hb---7-10fb-
----------------------9------8hb----8------/11----9fb-8-9-----9--------
-----------------------------------------------------------------------
-----------------------------------------------------------------------
-----------------------------------------------------------------------
W/WAH
-7-8p7-11p7-8-11-12/14-11-12--14/15-12-14-15p14-12----14p11-12h14p12----
---------------------------------------------------15----------------15-
------------------------------------------------------------------------
------------------------------------------------------------------------
------------------------------------------------------------------------
------------------------------------------------------------------------

-17--------------------------------------------------------------------
----15fb--15fb--15fb--15fb--15fbp12-----15fb---15fb-------15fbp12------
------------------------------------14----------------------------14---
-----------------------------------------------------------------------
-----------------------------------------------------------------------
-----------------------------------------------------------------------

----------------------------------15-----------------------------------
--17^---17^--------17^----17^----------17^---------17^-p15--15h17------
-------------------17^-------------------------------------------------
-----------------------------------------------------------------------
-----------------------------------------------------------------------
-----------------------------------------------------------------------

-----------12----------------------------------------------------------
-15^------------15---12------------------------------------------------
---------------------------14^-p12-14---12-14----12--14^----12--14--12-
-----------------------------------------------------------------------
-----------------------------------------------------------------------
-----------------------------------------------------------------------

----15-------------15-----15-----15------------------------------------
----15-------15----15-----15-------15----------------------------------
-14^--14--12-14^-----14^----14^------14^-p12----14p12--x-x----12^------
---------------------------------------------14--------x-x-------------
-----------------------------------------------------------------------
-----------------------------------------------------------------------

-----------------------------------------------------------------------
-----------------------------------------------------------------------
-----------------12h14p12----12^--------------------12h14p12-----12-12-
-14p12-14----x-x----------14--------14p12-14----x-x----------14--------
-----------------------------------------------------------------------
-----------------------------------------------------------------------

----------------------------------------------12-12-------15-15p12--15-
-------------------12-12-------15-15p12-------------15p12--------------
-------14-14p12-14-------14p12-----------------------------------------
-14p12-----------------------------------------------------------------
-----------------------------------------------------------------------
-----------------------------------------------------------------------

-14----12h15p12---------12-----------12-----------12-----------12-------
----15----------15--15^----15p12--------15p12-15^----15p12--------15p12-
----------------------------------14^-----------------------14^---------
------------------------------------------------------------------------
------------------------------------------------------------------------
------------------------------------------------------------------------

------12-----------12-----------12--------------12-------15^-----------
--15^----15p12--------15p12-15^----15p12-----12----15p12---------------
---------------14^-----------------------14^---------------------------
-----------------------------------------------------------------------
-----------------------------------------------------------------------
-----------------------------------------------------------------------

--------------------15------12h15p12----12------12---------------------
-------------------------------------15-----15^-----15p12--------------
-----------------------------------------------------------14^-p12-14^-
-----------------------------------------------------------------------
-----------------------------------------------------------------------
-----------------------------------------------------------------------

---------------------------------------------------
-------15------------------------------------------
----------14^-p12-14^----14p12--------------12----
----------------------14-------14------------------
---------------------------------------------------
---------------------------------------------------


Chord Dear God

Diposkan oleh Anjar Saputro's Rabu, 10 Februari 2010 0 comment(s)

Intro: F-C-Dm-Am-B-F-C x2

F C Dm Am
A lonely road, crossed another cold state line
B F C
Miles away from those I love purpose hard to find
F C Dm Am
While I recall all the words you spoke to me
B F
Can't help but wish that I was there
C
Back where I'd love to be, oh yeah



F C Dm C
Dear God the only thing I ask of you is
B F
to hold her when I'm not around,
C
when I'm much too far away
F C Dm C
We all need that person who can be true to you
B F
But I left her when I found her
C
And now I wish I'd stayed
B C
’Cause I'm lonely and I'm tired
Am Dm C B
I'm missing you again oh no
F
Once again


F C Dm Am
There's nothing here for me on this barren road
B F
There's no one here while the city sleeps
C
and all the shops are closed
F C Dm Am
Can't help but think of the times I've had with you
B F C
Pictures and some memories will have to help me through, oh yeah


F C Dm C
Dear God the only thing I ask of you is
B F
to hold her when I'm not around,
C
when I'm much too far away
F C Dm C
We all need that person who can be true to you
B F
I left her when I found her
C
And now I wish I'd stayed
B C
’Cause I'm lonely and I'm tired
Am Dm C B
I'm missing you again oh no
F
Once again


Dm Am B F
Some search, never finding a way
Dm Am B F
Before long, they waste away
Dm Am B F
I found you, something told me to stay
Dm Am B F
I gave in, to selfish ways
Gm C
And how I miss someone to hold

when hope begins to fade...

F C Dm Am
A lonely road, crossed another cold state line
B F C
Miles away from those I love purpose hard to find


F C Dm C
Dear God the only thing I ask of you is
B F
to hold her when I'm not around,
C
when I'm much too far away
F C Dm C
We all need the person who can be true to you
B F
I left her when I found her
C
And now I wish I'd stayed
B C
’Cause I'm lonely and I'm tired
Am Dm C B
I'm missing you again oh no
F
Once again



ShoutMix chat widget

Mengenai Saya

Foto Saya
Klaten, Jawa Tengah, Indonesia
I Love Game. Are you Llove it too.

Pengikut